ISO-10303-21;
HEADER;
FILE_DESCRIPTION (( 'STEP AP203' ),
    '1' );
FILE_NAME ('int_meter_gasket.STEP',
    '2020-04-21T16:24:15',
    ( '' ),
    ( '' ),
    'SwSTEP 2.0',
    'SolidWorks 2020',
    '' );
FILE_SCHEMA (( 'CONFIG_CONTROL_DESIGN' ));
ENDSEC;

DATA;
#1 = CALENDAR_DATE ( 2020, 21, 4 ) ;
#2 = APPROVAL ( #144, 'UNSPECIFIED' ) ;
#3 = LINE ( 'NONE', #22, #265 ) ;
#4 = EDGE_CURVE ( 'NONE', #135, #254, #184, .T. ) ;
#5 = CARTESIAN_POINT ( 'NONE',  ( 47.89999999999998437, -23.89999999999998082, 1.000000000000000000 ) ) ;
#6 = CARTESIAN_POINT ( 'NONE',  ( -45.89999999999999858, -21.89999999999998082, 1.000000000000000000 ) ) ;
#7 = AXIS2_PLACEMENT_3D ( 'NONE', #250, #107, #276 ) ;
#8 = DIRECTION ( 'NONE',  ( 1.000000000000000000, -0.0000000000000000000, -0.0000000000000000000 ) ) ;
#9 = CARTESIAN_POINT ( 'NONE',  ( 47.89999999999998437, -23.89999999999998082, 1.000000000000000000 ) ) ;
#10 = CARTESIAN_POINT ( 'NONE',  ( 45.89999999999998437, -21.89999999999998082, 0.0000000000000000000 ) ) ;
#11 = CARTESIAN_POINT ( 'NONE',  ( 47.89999999999999858, 23.90000000000002700, 0.0000000000000000000 ) ) ;
#12 = DIRECTION ( 'NONE',  ( 0.0000000000000000000, 0.0000000000000000000, 1.000000000000000000 ) ) ;
#13 = ORIENTED_EDGE ( 'NONE', *, *, #25, .T. ) ;
#14 = EDGE_LOOP ( 'NONE', ( #171, #78, #362, #61 ) ) ;
#15 = PRODUCT_RELATED_PRODUCT_CATEGORY ( 'detail', '', ( #349 ) ) ;
#16 = PERSON_AND_ORGANIZATION ( #215, #289 ) ;
#17 = EDGE_LOOP ( 'NONE', ( #43, #331, #315, #314 ) ) ;
#18 = CARTESIAN_POINT ( 'NONE',  ( 45.89999999999998437, -21.89999999999998082, 1.000000000000000000 ) ) ;
#19 = EDGE_CURVE ( 'NONE', #333, #277, #120, .T. ) ;
#20 = VERTEX_POINT ( 'NONE', #87 ) ;
#21 = CARTESIAN_POINT ( 'NONE',  ( -47.89999999999999858, 23.90000000000002700, 0.0000000000000000000 ) ) ;
#22 = CARTESIAN_POINT ( 'NONE',  ( 45.89999999999998437, -21.89999999999998082, 1.000000000000000000 ) ) ;
#23 = CC_DESIGN_APPROVAL ( #35, ( #343 ) ) ;
#24 = DIRECTION ( 'NONE',  ( 0.0000000000000000000, -1.000000000000000000, 0.0000000000000000000 ) ) ;
#25 = EDGE_CURVE ( 'NONE', #175, #181, #348, .T. ) ;
#26 = PERSON_AND_ORGANIZATION ( #215, #289 ) ;
#27 = DIRECTION ( 'NONE',  ( -0.0000000000000000000, 0.0000000000000000000, -1.000000000000000000 ) ) ;
#28 = APPROVAL ( #200, 'UNSPECIFIED' ) ;
#29 = APPROVAL_STATUS ( 'not_yet_approved' ) ;
#30 = CARTESIAN_POINT ( 'NONE',  ( 47.89999999999998437, -23.89999999999998082, 1.000000000000000000 ) ) ;
#31 = AXIS2_PLACEMENT_3D ( 'NONE', #214, #34, #100 ) ;
#32 = PERSON_AND_ORGANIZATION ( #215, #289 ) ;
#33 = ORIENTED_EDGE ( 'NONE', *, *, #220, .T. ) ;
#34 = DIRECTION ( 'NONE',  ( 0.0000000000000000000, -1.000000000000000000, 0.0000000000000000000 ) ) ;
#35 = APPROVAL ( #29, 'UNSPECIFIED' ) ;
#36 = FACE_BOUND ( 'NONE', #53, .T. ) ;
#37 = EDGE_CURVE ( 'NONE', #277, #135, #211, .T. ) ;
#38 = LINE ( 'NONE', #323, #335 ) ;
#39 = CARTESIAN_POINT ( 'NONE',  ( 47.89999999999998437, -23.89999999999998082, 0.0000000000000000000 ) ) ;
#40 = CC_DESIGN_PERSON_AND_ORGANIZATION_ASSIGNMENT ( #338, #311, ( #224 ) ) ;
#41 = CARTESIAN_POINT ( 'NONE',  ( 47.89999999999998437, -23.89999999999998082, 1.000000000000000000 ) ) ;
#42 = LINE ( 'NONE', #136, #191 ) ;
#43 = ORIENTED_EDGE ( 'NONE', *, *, #278, .T. ) ;
#44 = EDGE_CURVE ( 'NONE', #102, #154, #3, .T. ) ;
#45 = APPROVAL_ROLE ( '' ) ;
#46 = ORIENTED_EDGE ( 'NONE', *, *, #300, .T. ) ;
#47 = ORIENTED_EDGE ( 'NONE', *, *, #55, .T. ) ;
#48 = AXIS2_PLACEMENT_3D ( 'NONE', #18, #139, #226 ) ;
#49 = CARTESIAN_POINT ( 'NONE',  ( 45.89999999999999147, 21.90000000000002345, 0.0000000000000000000 ) ) ;
#50 = ORIENTED_EDGE ( 'NONE', *, *, #206, .F. ) ;
#51 = APPROVAL_ROLE ( '' ) ;
#52 = EDGE_CURVE ( 'NONE', #81, #358, #369, .T. ) ;
#53 = EDGE_LOOP ( 'NONE', ( #337, #115, #46, #302 ) ) ;
#54 = DIRECTION ( 'NONE',  ( 1.000000000000000000, 0.0000000000000000000, -0.0000000000000000000 ) ) ;
#55 = EDGE_CURVE ( 'NONE', #102, #20, #257, .T. ) ;
#56 = COORDINATED_UNIVERSAL_TIME_OFFSET ( 0, 0, .AHEAD. ) ;
#57 = CARTESIAN_POINT ( 'NONE',  ( -47.89999999999999858, 23.90000000000002700, 0.0000000000000000000 ) ) ;
#58 = CC_DESIGN_DATE_AND_TIME_ASSIGNMENT ( #230, #148, ( #224 ) ) ;
#59 = APPROVAL_DATE_TIME ( #368, #35 ) ;
#60 = CARTESIAN_POINT ( 'NONE',  ( -47.89999999999999858, -23.89999999999998437, 1.000000000000000000 ) ) ;
#61 = ORIENTED_EDGE ( 'NONE', *, *, #198, .F. ) ;
#62 = CARTESIAN_POINT ( 'NONE',  ( 47.89999999999999858, 23.90000000000002700, 1.000000000000000000 ) ) ;
#63 = DIRECTION ( 'NONE',  ( 2.903302888664111916E-16, 1.000000000000000000, 0.0000000000000000000 ) ) ;
#64 = VECTOR ( 'NONE', #94, 1000.000000000000000 ) ;
#65 = FACE_OUTER_BOUND ( 'NONE', #269, .T. ) ;
#66 = FACE_OUTER_BOUND ( 'NONE', #142, .T. ) ;
#67 =( GEOMETRIC_REPRESENTATION_CONTEXT ( 3 ) GLOBAL_UNCERTAINTY_ASSIGNED_CONTEXT ( ( #316 ) ) GLOBAL_UNIT_ASSIGNED_CONTEXT ( ( #361, #332, #366 ) ) REPRESENTATION_CONTEXT ( 'NONE', 'WORKASPACE' ) );
#68 = ADVANCED_FACE ( 'NONE', ( #234 ), #232, .F. ) ;
#69 = DIRECTION ( 'NONE',  ( -0.0000000000000000000, -0.0000000000000000000, -1.000000000000000000 ) ) ;
#70 = LINE ( 'NONE', #49, #124 ) ;
#71 = PLANE ( 'NONE',  #48 ) ;
#72 = ADVANCED_FACE ( 'NONE', ( #344 ), #177, .T. ) ;
#73 = VECTOR ( 'NONE', #259, 1000.000000000000000 ) ;
#74 = ORIENTED_EDGE ( 'NONE', *, *, #300, .F. ) ;
#75 = LOCAL_TIME ( 17, 24, 15.00000000000000000, #56 ) ;
#76 = PRODUCT_DEFINITION_FORMATION_WITH_SPECIFIED_SOURCE ( 'ANY', '', #349, .NOT_KNOWN. ) ;
#77 = APPLICATION_PROTOCOL_DEFINITION ( 'international standard', 'config_control_design', 1994, #166 ) ;
#78 = ORIENTED_EDGE ( 'NONE', *, *, #278, .F. ) ;
#79 = ADVANCED_FACE ( 'NONE', ( #209 ), #285, .F. ) ;
#80 = CARTESIAN_POINT ( 'NONE',  ( 45.89999999999998437, -21.89999999999998082, 1.000000000000000000 ) ) ;
#81 = VERTEX_POINT ( 'NONE', #150 ) ;
#82 = CARTESIAN_POINT ( 'NONE',  ( -45.90000000000000568, 21.90000000000002345, 1.000000000000000000 ) ) ;
#83 = EDGE_LOOP ( 'NONE', ( #104, #202, #173, #199 ) ) ;
#84 = VECTOR ( 'NONE', #8, 1000.000000000000000 ) ;
#85 = ORIENTED_EDGE ( 'NONE', *, *, #4, .T. ) ;
#86 = PERSON_AND_ORGANIZATION_ROLE ( 'design_supplier' ) ;
#87 = CARTESIAN_POINT ( 'NONE',  ( 45.89999999999999147, 21.90000000000002345, 1.000000000000000000 ) ) ;
#88 = CLOSED_SHELL ( 'NONE', ( #165, #221, #79, #193, #68, #131, #72, #334, #240, #133 ) ) ;
#89 = CC_DESIGN_DATE_AND_TIME_ASSIGNMENT ( #176, #284, ( #343 ) ) ;
#90 = LINE ( 'NONE', #57, #73 ) ;
#91 = DIRECTION ( 'NONE',  ( -0.0000000000000000000, -0.0000000000000000000, -1.000000000000000000 ) ) ;
#92 = CALENDAR_DATE ( 2020, 21, 4 ) ;
#93 = ORIENTED_EDGE ( 'NONE', *, *, #37, .T. ) ;
#94 = DIRECTION ( 'NONE',  ( -0.0000000000000000000, -0.0000000000000000000, -1.000000000000000000 ) ) ;
#95 = VECTOR ( 'NONE', #216, 1000.000000000000000 ) ;
#96 = DIRECTION ( 'NONE',  ( 1.584222352490234547E-16, -1.000000000000000000, -0.0000000000000000000 ) ) ;
#97 = FACE_OUTER_BOUND ( 'NONE', #130, .T. ) ;
#98 = DIRECTION ( 'NONE',  ( 1.000000000000000000, 0.0000000000000000000, -0.0000000000000000000 ) ) ;
#99 = LINE ( 'NONE', #353, #328 ) ;
#100 = DIRECTION ( 'NONE',  ( 0.0000000000000000000, -0.0000000000000000000, -1.000000000000000000 ) ) ;
#101 = DIRECTION ( 'NONE',  ( -1.000000000000000000, -0.0000000000000000000, -0.0000000000000000000 ) ) ;
#102 = VERTEX_POINT ( 'NONE', #236 ) ;
#103 = CARTESIAN_POINT ( 'NONE',  ( -45.90000000000000568, 21.90000000000002345, 1.000000000000000000 ) ) ;
#104 = ORIENTED_EDGE ( 'NONE', *, *, #109, .T. ) ;
#105 = CARTESIAN_POINT ( 'NONE',  ( -47.89999999999999858, -23.89999999999998437, 1.000000000000000000 ) ) ;
#106 = ORIENTED_EDGE ( 'NONE', *, *, #121, .F. ) ;
#107 = DIRECTION ( 'NONE',  ( -1.000000000000000000, 1.584222352490234547E-16, 0.0000000000000000000 ) ) ;
#108 = ORIENTED_EDGE ( 'NONE', *, *, #186, .F. ) ;
#109 = EDGE_CURVE ( 'NONE', #299, #251, #90, .T. ) ;
#110 = ORIENTED_EDGE ( 'NONE', *, *, #342, .F. ) ;
#111 = CALENDAR_DATE ( 2020, 21, 4 ) ;
#112 = DIRECTION ( 'NONE',  ( -0.0000000000000000000, -0.0000000000000000000, -1.000000000000000000 ) ) ;
#113 = PERSON_AND_ORGANIZATION_ROLE ( 'creator' ) ;
#114 = EDGE_LOOP ( 'NONE', ( #339, #260, #237, #272 ) ) ;
#115 = ORIENTED_EDGE ( 'NONE', *, *, #155, .T. ) ;
#116 = DESIGN_CONTEXT ( 'detailed design', #166, 'design' ) ;
#117 = VECTOR ( 'NONE', #252, 1000.000000000000000 ) ;
#118 = COORDINATED_UNIVERSAL_TIME_OFFSET ( 0, 0, .AHEAD. ) ;
#119 = CARTESIAN_POINT ( 'NONE',  ( -47.89999999999999858, 23.90000000000002700, 1.000000000000000000 ) ) ;
#120 = LINE ( 'NONE', #119, #340 ) ;
#121 = EDGE_CURVE ( 'NONE', #268, #210, #99, .T. ) ;
#122 = DIRECTION ( 'NONE',  ( -1.000000000000000000, 0.0000000000000000000, 0.0000000000000000000 ) ) ;
#123 = AXIS2_PLACEMENT_3D ( 'NONE', #162, #322, #189 ) ;
#124 = VECTOR ( 'NONE', #170, 1000.000000000000000 ) ;
#125 = CARTESIAN_POINT ( 'NONE',  ( 0.0000000000000000000, 0.0000000000000000000, 1.000000000000000000 ) ) ;
#126 = PLANE ( 'NONE',  #239 ) ;
#127 = LINE ( 'NONE', #262, #84 ) ;
#128 = DIRECTION ( 'NONE',  ( -1.000000000000000000, 0.0000000000000000000, 0.0000000000000000000 ) ) ;
#129 = CC_DESIGN_APPROVAL ( #2, ( #76 ) ) ;
#130 = EDGE_LOOP ( 'NONE', ( #106, #110, #364, #201 ) ) ;
#131 = ADVANCED_FACE ( 'NONE', ( #266 ), #296, .F. ) ;
#132 = MECHANICAL_CONTEXT ( 'NONE', #140, 'mechanical' ) ;
#133 = ADVANCED_FACE ( 'NONE', ( #97 ), #356, .T. ) ;
#134 = LINE ( 'NONE', #168, #217 ) ;
#135 = VERTEX_POINT ( 'NONE', #41 ) ;
#136 = CARTESIAN_POINT ( 'NONE',  ( 45.89999999999999147, 21.90000000000002345, 1.000000000000000000 ) ) ;
#137 = ORIENTED_EDGE ( 'NONE', *, *, #159, .F. ) ;
#138 = EDGE_CURVE ( 'NONE', #254, #358, #350, .T. ) ;
#139 = DIRECTION ( 'NONE',  ( 0.0000000000000000000, 1.000000000000000000, -0.0000000000000000000 ) ) ;
#140 = APPLICATION_CONTEXT ( 'configuration controlled 3d designs of mechanical parts and assemblies' ) ;
#141 = DATE_AND_TIME ( #1, #75 ) ;
#142 = EDGE_LOOP ( 'NONE', ( #74, #227, #47, #373 ) ) ;
#143 = VECTOR ( 'NONE', #218, 1000.000000000000000 ) ;
#144 = APPROVAL_STATUS ( 'not_yet_approved' ) ;
#145 = DIRECTION ( 'NONE',  ( 1.000000000000000000, 1.584222352490234547E-16, -0.0000000000000000000 ) ) ;
#146 = PERSON_AND_ORGANIZATION_ROLE ( 'classification_officer' ) ;
#147 = CARTESIAN_POINT ( 'NONE',  ( 45.89999999999999147, 21.90000000000002345, 1.000000000000000000 ) ) ;
#148 = DATE_TIME_ROLE ( 'creation_date' ) ;
#149 = EDGE_CURVE ( 'NONE', #303, #210, #158, .T. ) ;
#150 = CARTESIAN_POINT ( 'NONE',  ( 47.89999999999999858, 23.90000000000002700, 1.000000000000000000 ) ) ;
#151 = AXIS2_PLACEMENT_3D ( 'NONE', #267, #12, #246 ) ;
#152 = SHAPE_DEFINITION_REPRESENTATION ( #187, #163 ) ;
#153 = CC_DESIGN_PERSON_AND_ORGANIZATION_ASSIGNMENT ( #235, #146, ( #343 ) ) ;
#154 = VERTEX_POINT ( 'NONE', #10 ) ;
#155 = EDGE_CURVE ( 'NONE', #181, #154, #127, .T. ) ;
#156 = PLANE ( 'NONE',  #123 ) ;
#157 = EDGE_CURVE ( 'NONE', #303, #175, #261, .T. ) ;
#158 = LINE ( 'NONE', #245, #249 ) ;
#159 = EDGE_CURVE ( 'NONE', #81, #333, #161, .T. ) ;
#160 = APPROVAL_PERSON_ORGANIZATION ( #16, #28, #45 ) ;
#161 = LINE ( 'NONE', #62, #190 ) ;
#162 = CARTESIAN_POINT ( 'NONE',  ( 47.89999999999999858, 23.90000000000002700, 1.000000000000000000 ) ) ;
#163 = ADVANCED_BREP_SHAPE_REPRESENTATION ( 'int_meter_gasket', ( #308, #151 ), #67 ) ;
#164 = FACE_OUTER_BOUND ( 'NONE', #341, .T. ) ;
#165 = ADVANCED_FACE ( 'NONE', ( #65, #185 ), #355, .T. ) ;
#166 = APPLICATION_CONTEXT ( 'configuration controlled 3d designs of mechanical parts and assemblies' ) ;
#167 = ORIENTED_EDGE ( 'NONE', *, *, #159, .T. ) ;
#168 = CARTESIAN_POINT ( 'NONE',  ( -47.89999999999999858, -23.89999999999998437, 0.0000000000000000000 ) ) ;
#169 = CARTESIAN_POINT ( 'NONE',  ( -47.89999999999999858, 23.90000000000002700, 1.000000000000000000 ) ) ;
#170 = DIRECTION ( 'NONE',  ( 1.584222352490234547E-16, 1.000000000000000000, -0.0000000000000000000 ) ) ;
#171 = ORIENTED_EDGE ( 'NONE', *, *, #138, .F. ) ;
#172 = CARTESIAN_POINT ( 'NONE',  ( -47.89999999999999858, -23.89999999999998437, 1.000000000000000000 ) ) ;
#173 = ORIENTED_EDGE ( 'NONE', *, *, #19, .F. ) ;
#174 = APPROVAL_ROLE ( '' ) ;
#175 = VERTEX_POINT ( 'NONE', #243 ) ;
#176 = DATE_AND_TIME ( #313, #294 ) ;
#177 = PLANE ( 'NONE',  #204 ) ;
#178 = VECTOR ( 'NONE', #63, 1000.000000000000000 ) ;
#179 = EDGE_LOOP ( 'NONE', ( #327, #367, #360, #85 ) ) ;
#180 = SECURITY_CLASSIFICATION_LEVEL ( 'unclassified' ) ;
#181 = VERTEX_POINT ( 'NONE', #242 ) ;
#182 = CC_DESIGN_PERSON_AND_ORGANIZATION_ASSIGNMENT ( #258, #86, ( #76 ) ) ;
#183 = CALENDAR_DATE ( 2020, 21, 4 ) ;
#184 = LINE ( 'NONE', #5, #292 ) ;
#185 = FACE_BOUND ( 'NONE', #114, .T. ) ;
#186 = EDGE_CURVE ( 'NONE', #333, #299, #38, .T. ) ;
#187 = PRODUCT_DEFINITION_SHAPE ( 'NONE', 'NONE',  #224 ) ;
#188 = FACE_OUTER_BOUND ( 'NONE', #14, .T. ) ;
#189 = DIRECTION ( 'NONE',  ( 0.0000000000000000000, -0.0000000000000000000, -1.000000000000000000 ) ) ;
#190 = VECTOR ( 'NONE', #122, 1000.000000000000000 ) ;
#191 = VECTOR ( 'NONE', #228, 1000.000000000000000 ) ;
#192 = CARTESIAN_POINT ( 'NONE',  ( 0.0000000000000000000, 0.0000000000000000000, 0.0000000000000000000 ) ) ;
#193 = ADVANCED_FACE ( 'NONE', ( #164 ), #156, .F. ) ;
#194 = DIRECTION ( 'NONE',  ( -1.000000000000000000, -0.0000000000000000000, -0.0000000000000000000 ) ) ;
#195 = LINE ( 'NONE', #82, #319 ) ;
#196 = VECTOR ( 'NONE', #96, 1000.000000000000000 ) ;
#197 = LOCAL_TIME ( 17, 24, 15.00000000000000000, #208 ) ;
#198 = EDGE_CURVE ( 'NONE', #358, #299, #293, .T. ) ;
#199 = ORIENTED_EDGE ( 'NONE', *, *, #186, .T. ) ;
#200 = APPROVAL_STATUS ( 'not_yet_approved' ) ;
#201 = ORIENTED_EDGE ( 'NONE', *, *, #149, .T. ) ;
#202 = ORIENTED_EDGE ( 'NONE', *, *, #321, .F. ) ;
#203 = FACE_OUTER_BOUND ( 'NONE', #309, .T. ) ;
#204 = AXIS2_PLACEMENT_3D ( 'NONE', #281, #145, #256 ) ;
#205 = CARTESIAN_POINT ( 'NONE',  ( -47.89999999999999858, 23.90000000000002700, 1.000000000000000000 ) ) ;
#206 = EDGE_CURVE ( 'NONE', #210, #181, #290, .T. ) ;
#207 = DIRECTION ( 'NONE',  ( -0.0000000000000000000, -0.0000000000000000000, -1.000000000000000000 ) ) ;
#208 = COORDINATED_UNIVERSAL_TIME_OFFSET ( 0, 0, .AHEAD. ) ;
#209 = FACE_OUTER_BOUND ( 'NONE', #179, .T. ) ;
#210 = VERTEX_POINT ( 'NONE', #213 ) ;
#211 = LINE ( 'NONE', #60, #270 ) ;
#212 = CC_DESIGN_APPROVAL ( #28, ( #224 ) ) ;
#213 = CARTESIAN_POINT ( 'NONE',  ( -45.90000000000000568, 21.90000000000002345, 0.0000000000000000000 ) ) ;
#214 = CARTESIAN_POINT ( 'NONE',  ( -45.90000000000000568, 21.90000000000002345, 1.000000000000000000 ) ) ;
#215 = PERSON ( 'UNSPECIFIED', 'UNSPECIFIED', 'UNSPECIFIED', ('UNSPECIFIED'), ('UNSPECIFIED'), ('UNSPECIFIED') ) ;
#216 = DIRECTION ( 'NONE',  ( 2.903302888664111916E-16, 1.000000000000000000, 0.0000000000000000000 ) ) ;
#217 = VECTOR ( 'NONE', #325, 1000.000000000000000 ) ;
#218 = DIRECTION ( 'NONE',  ( 1.584222352490234547E-16, -1.000000000000000000, -0.0000000000000000000 ) ) ;
#219 = CC_DESIGN_PERSON_AND_ORGANIZATION_ASSIGNMENT ( #345, #113, ( #76 ) ) ;
#220 = EDGE_CURVE ( 'NONE', #135, #81, #320, .T. ) ;
#221 = ADVANCED_FACE ( 'NONE', ( #188, #36 ), #126, .F. ) ;
#222 = ORIENTED_EDGE ( 'NONE', *, *, #149, .F. ) ;
#223 = PERSON_AND_ORGANIZATION_ROLE ( 'design_owner' ) ;
#224 = PRODUCT_DEFINITION ( 'UNKNOWN', '', #76, #116 ) ;
#225 = ORIENTED_EDGE ( 'NONE', *, *, #19, .T. ) ;
#226 = DIRECTION ( 'NONE',  ( 0.0000000000000000000, 0.0000000000000000000, 1.000000000000000000 ) ) ;
#227 = ORIENTED_EDGE ( 'NONE', *, *, #44, .F. ) ;
#228 = DIRECTION ( 'NONE',  ( -0.0000000000000000000, -0.0000000000000000000, -1.000000000000000000 ) ) ;
#229 = ORIENTED_EDGE ( 'NONE', *, *, #155, .F. ) ;
#230 = DATE_AND_TIME ( #183, #280 ) ;
#231 = ORIENTED_EDGE ( 'NONE', *, *, #198, .T. ) ;
#232 = PLANE ( 'NONE',  #253 ) ;
#233 = DIRECTION ( 'NONE',  ( -2.903302888664111916E-16, -1.000000000000000000, 0.0000000000000000000 ) ) ;
#234 = FACE_OUTER_BOUND ( 'NONE', #83, .T. ) ;
#235 = PERSON_AND_ORGANIZATION ( #215, #289 ) ;
#236 = CARTESIAN_POINT ( 'NONE',  ( 45.89999999999998437, -21.89999999999998082, 1.000000000000000000 ) ) ;
#237 = ORIENTED_EDGE ( 'NONE', *, *, #282, .F. ) ;
#238 = CARTESIAN_POINT ( 'NONE',  ( -45.89999999999999858, -21.89999999999998082, 0.0000000000000000000 ) ) ;
#239 = AXIS2_PLACEMENT_3D ( 'NONE', #192, #354, #98 ) ;
#240 = ADVANCED_FACE ( 'NONE', ( #66 ), #295, .T. ) ;
#241 = DIRECTION ( 'NONE',  ( -3.621552141914002918E-17, 1.000000000000000000, 0.0000000000000000000 ) ) ;
#242 = CARTESIAN_POINT ( 'NONE',  ( -45.89999999999999858, -21.89999999999998082, 0.0000000000000000000 ) ) ;
#243 = CARTESIAN_POINT ( 'NONE',  ( -45.89999999999999858, -21.89999999999998082, 1.000000000000000000 ) ) ;
#244 = AXIS2_PLACEMENT_3D ( 'NONE', #318, #241, #291 ) ;
#245 = CARTESIAN_POINT ( 'NONE',  ( -45.90000000000000568, 21.90000000000002345, 1.000000000000000000 ) ) ;
#246 = DIRECTION ( 'NONE',  ( 1.000000000000000000, 0.0000000000000000000, 0.0000000000000000000 ) ) ;
#247 = ORIENTED_EDGE ( 'NONE', *, *, #44, .T. ) ;
#248 = ORIENTED_EDGE ( 'NONE', *, *, #25, .F. ) ;
#249 = VECTOR ( 'NONE', #264, 1000.000000000000000 ) ;
#250 = CARTESIAN_POINT ( 'NONE',  ( 45.89999999999999147, 21.90000000000002345, 1.000000000000000000 ) ) ;
#251 = VERTEX_POINT ( 'NONE', #363 ) ;
#252 = DIRECTION ( 'NONE',  ( 1.000000000000000000, -0.0000000000000000000, -0.0000000000000000000 ) ) ;
#253 = AXIS2_PLACEMENT_3D ( 'NONE', #205, #54, #27 ) ;
#254 = VERTEX_POINT ( 'NONE', #357 ) ;
#255 = LOCAL_TIME ( 17, 24, 15.00000000000000000, #370 ) ;
#256 = DIRECTION ( 'NONE',  ( -1.584222352490234547E-16, 1.000000000000000000, 0.0000000000000000000 ) ) ;
#257 = LINE ( 'NONE', #147, #317 ) ;
#258 = PERSON_AND_ORGANIZATION ( #215, #289 ) ;
#259 = DIRECTION ( 'NONE',  ( 0.0000000000000000000, -1.000000000000000000, 0.0000000000000000000 ) ) ;
#260 = ORIENTED_EDGE ( 'NONE', *, *, #157, .F. ) ;
#261 = LINE ( 'NONE', #6, #143 ) ;
#262 = CARTESIAN_POINT ( 'NONE',  ( 45.89999999999998437, -21.89999999999998082, 0.0000000000000000000 ) ) ;
#263 = DIRECTION ( 'NONE',  ( 0.0000000000000000000, -0.0000000000000000000, 1.000000000000000000 ) ) ;
#264 = DIRECTION ( 'NONE',  ( -0.0000000000000000000, -0.0000000000000000000, -1.000000000000000000 ) ) ;
#265 = VECTOR ( 'NONE', #91, 1000.000000000000000 ) ;
#266 = FACE_OUTER_BOUND ( 'NONE', #17, .T. ) ;
#267 = CARTESIAN_POINT ( 'NONE',  ( 0.0000000000000000000, 0.0000000000000000000, 0.0000000000000000000 ) ) ;
#268 = VERTEX_POINT ( 'NONE', #306 ) ;
#269 = EDGE_LOOP ( 'NONE', ( #33, #167, #225, #93 ) ) ;
#270 = VECTOR ( 'NONE', #310, 1000.000000000000000 ) ;
#271 = LINE ( 'NONE', #172, #305 ) ;
#272 = ORIENTED_EDGE ( 'NONE', *, *, #55, .F. ) ;
#273 = APPROVAL_PERSON_ORGANIZATION ( #32, #35, #174 ) ;
#274 = CARTESIAN_POINT ( 'NONE',  ( 47.89999999999999858, 23.90000000000002700, 0.0000000000000000000 ) ) ;
#275 = ORIENTED_EDGE ( 'NONE', *, *, #347, .T. ) ;
#276 = DIRECTION ( 'NONE',  ( -1.584222352490234547E-16, -1.000000000000000000, 0.0000000000000000000 ) ) ;
#277 = VERTEX_POINT ( 'NONE', #105 ) ;
#278 = EDGE_CURVE ( 'NONE', #251, #254, #134, .T. ) ;
#279 = CARTESIAN_POINT ( 'NONE',  ( -45.89999999999999858, -21.89999999999998082, 1.000000000000000000 ) ) ;
#280 = LOCAL_TIME ( 17, 24, 15.00000000000000000, #118 ) ;
#281 = CARTESIAN_POINT ( 'NONE',  ( -45.89999999999999858, -21.89999999999998082, 1.000000000000000000 ) ) ;
#282 = EDGE_CURVE ( 'NONE', #20, #303, #195, .T. ) ;
#283 = ORIENTED_EDGE ( 'NONE', *, *, #52, .T. ) ;
#284 = DATE_TIME_ROLE ( 'classification_date' ) ;
#285 = PLANE ( 'NONE',  #297 ) ;
#286 = APPROVAL_DATE_TIME ( #372, #2 ) ;
#287 = EDGE_LOOP ( 'NONE', ( #50, #222, #329, #13 ) ) ;
#288 = AXIS2_PLACEMENT_3D ( 'NONE', #125, #263, #324 ) ;
#289 = ORGANIZATION ( 'UNSPECIFIED', 'UNSPECIFIED', '' ) ;
#290 = LINE ( 'NONE', #238, #196 ) ;
#291 = DIRECTION ( 'NONE',  ( -1.000000000000000000, -3.621552141914002918E-17, 0.0000000000000000000 ) ) ;
#292 = VECTOR ( 'NONE', #112, 1000.000000000000000 ) ;
#293 = LINE ( 'NONE', #11, #351 ) ;
#294 = LOCAL_TIME ( 17, 24, 15.00000000000000000, #336 ) ;
#295 = PLANE ( 'NONE',  #7 ) ;
#296 = PLANE ( 'NONE',  #244 ) ;
#297 = AXIS2_PLACEMENT_3D ( 'NONE', #30, #371, #233 ) ;
#298 = CC_DESIGN_SECURITY_CLASSIFICATION ( #343, ( #76 ) ) ;
#299 = VERTEX_POINT ( 'NONE', #21 ) ;
#300 = EDGE_CURVE ( 'NONE', #154, #268, #70, .T. ) ;
#301 = LINE ( 'NONE', #80, #117 ) ;
#302 = ORIENTED_EDGE ( 'NONE', *, *, #121, .T. ) ;
#303 = VERTEX_POINT ( 'NONE', #103 ) ;
#304 = CC_DESIGN_PERSON_AND_ORGANIZATION_ASSIGNMENT ( #359, #223, ( #349 ) ) ;
#305 = VECTOR ( 'NONE', #330, 1000.000000000000000 ) ;
#306 = CARTESIAN_POINT ( 'NONE',  ( 45.89999999999999147, 21.90000000000002345, 0.0000000000000000000 ) ) ;
#307 = APPROVAL_DATE_TIME ( #141, #28 ) ;
#308 = MANIFOLD_SOLID_BREP ( 'Boss-Extrude1', #88 ) ;
#309 = EDGE_LOOP ( 'NONE', ( #229, #248, #275, #247 ) ) ;
#310 = DIRECTION ( 'NONE',  ( 1.000000000000000000, 3.621552141914002918E-17, 0.0000000000000000000 ) ) ;
#311 = PERSON_AND_ORGANIZATION_ROLE ( 'creator' ) ;
#312 = DIRECTION ( 'NONE',  ( 1.584222352490234547E-16, 1.000000000000000000, -0.0000000000000000000 ) ) ;
#313 = CALENDAR_DATE ( 2020, 21, 4 ) ;
#314 = ORIENTED_EDGE ( 'NONE', *, *, #321, .T. ) ;
#315 = ORIENTED_EDGE ( 'NONE', *, *, #37, .F. ) ;
#316 = UNCERTAINTY_MEASURE_WITH_UNIT (LENGTH_MEASURE( 1.000000000000000082E-05 ), #361, 'distance_accuracy_value', 'NONE');
#317 = VECTOR ( 'NONE', #312, 1000.000000000000000 ) ;
#318 = CARTESIAN_POINT ( 'NONE',  ( -47.89999999999999858, -23.89999999999998437, 1.000000000000000000 ) ) ;
#319 = VECTOR ( 'NONE', #101, 1000.000000000000000 ) ;
#320 = LINE ( 'NONE', #9, #178 ) ;
#321 = EDGE_CURVE ( 'NONE', #277, #251, #271, .T. ) ;
#322 = DIRECTION ( 'NONE',  ( 0.0000000000000000000, -1.000000000000000000, 0.0000000000000000000 ) ) ;
#323 = CARTESIAN_POINT ( 'NONE',  ( -47.89999999999999858, 23.90000000000002700, 1.000000000000000000 ) ) ;
#324 = DIRECTION ( 'NONE',  ( 1.000000000000000000, 0.0000000000000000000, -0.0000000000000000000 ) ) ;
#325 = DIRECTION ( 'NONE',  ( 1.000000000000000000, 3.621552141914002918E-17, 0.0000000000000000000 ) ) ;
#326 = APPLICATION_PROTOCOL_DEFINITION ( 'international standard', 'config_control_design', 1994, #140 ) ;
#327 = ORIENTED_EDGE ( 'NONE', *, *, #138, .T. ) ;
#328 = VECTOR ( 'NONE', #194, 1000.000000000000000 ) ;
#329 = ORIENTED_EDGE ( 'NONE', *, *, #157, .T. ) ;
#330 = DIRECTION ( 'NONE',  ( -0.0000000000000000000, -0.0000000000000000000, -1.000000000000000000 ) ) ;
#331 = ORIENTED_EDGE ( 'NONE', *, *, #4, .F. ) ;
#332 =( NAMED_UNIT ( * ) PLANE_ANGLE_UNIT ( ) SI_UNIT ( $, .RADIAN. ) );
#333 = VERTEX_POINT ( 'NONE', #169 ) ;
#334 = ADVANCED_FACE ( 'NONE', ( #203 ), #71, .T. ) ;
#335 = VECTOR ( 'NONE', #69, 1000.000000000000000 ) ;
#336 = COORDINATED_UNIVERSAL_TIME_OFFSET ( 0, 0, .AHEAD. ) ;
#337 = ORIENTED_EDGE ( 'NONE', *, *, #206, .T. ) ;
#338 = PERSON_AND_ORGANIZATION ( #215, #289 ) ;
#339 = ORIENTED_EDGE ( 'NONE', *, *, #347, .F. ) ;
#340 = VECTOR ( 'NONE', #24, 1000.000000000000000 ) ;
#341 = EDGE_LOOP ( 'NONE', ( #231, #108, #137, #283 ) ) ;
#342 = EDGE_CURVE ( 'NONE', #20, #268, #42, .T. ) ;
#343 = SECURITY_CLASSIFICATION ( '', '', #180 ) ;
#344 = FACE_OUTER_BOUND ( 'NONE', #287, .T. ) ;
#345 = PERSON_AND_ORGANIZATION ( #215, #289 ) ;
#346 = CARTESIAN_POINT ( 'NONE',  ( 47.89999999999999858, 23.90000000000002700, 1.000000000000000000 ) ) ;
#347 = EDGE_CURVE ( 'NONE', #175, #102, #301, .T. ) ;
#348 = LINE ( 'NONE', #279, #64 ) ;
#349 = PRODUCT ( 'int_meter_gasket', 'int_meter_gasket', '', ( #132 ) ) ;
#350 = LINE ( 'NONE', #39, #95 ) ;
#351 = VECTOR ( 'NONE', #128, 1000.000000000000000 ) ;
#352 = APPROVAL_PERSON_ORGANIZATION ( #26, #2, #51 ) ;
#353 = CARTESIAN_POINT ( 'NONE',  ( -45.90000000000000568, 21.90000000000002345, 0.0000000000000000000 ) ) ;
#354 = DIRECTION ( 'NONE',  ( 0.0000000000000000000, -0.0000000000000000000, 1.000000000000000000 ) ) ;
#355 = PLANE ( 'NONE',  #288 ) ;
#356 = PLANE ( 'NONE',  #31 ) ;
#357 = CARTESIAN_POINT ( 'NONE',  ( 47.89999999999998437, -23.89999999999998082, 0.0000000000000000000 ) ) ;
#358 = VERTEX_POINT ( 'NONE', #274 ) ;
#359 = PERSON_AND_ORGANIZATION ( #215, #289 ) ;
#360 = ORIENTED_EDGE ( 'NONE', *, *, #220, .F. ) ;
#361 =( LENGTH_UNIT ( ) NAMED_UNIT ( * ) SI_UNIT ( .MILLI., .METRE. ) );
#362 = ORIENTED_EDGE ( 'NONE', *, *, #109, .F. ) ;
#363 = CARTESIAN_POINT ( 'NONE',  ( -47.89999999999999858, -23.89999999999998437, 0.0000000000000000000 ) ) ;
#364 = ORIENTED_EDGE ( 'NONE', *, *, #282, .T. ) ;
#365 = VECTOR ( 'NONE', #207, 1000.000000000000000 ) ;
#366 =( NAMED_UNIT ( * ) SI_UNIT ( $, .STERADIAN. ) SOLID_ANGLE_UNIT ( ) );
#367 = ORIENTED_EDGE ( 'NONE', *, *, #52, .F. ) ;
#368 = DATE_AND_TIME ( #92, #197 ) ;
#369 = LINE ( 'NONE', #346, #365 ) ;
#370 = COORDINATED_UNIVERSAL_TIME_OFFSET ( 0, 0, .AHEAD. ) ;
#371 = DIRECTION ( 'NONE',  ( -1.000000000000000000, 2.903302888664111916E-16, 0.0000000000000000000 ) ) ;
#372 = DATE_AND_TIME ( #111, #255 ) ;
#373 = ORIENTED_EDGE ( 'NONE', *, *, #342, .T. ) ;
ENDSEC;
END-ISO-10303-21;
